  0
SECTION
  2
HEADER
  9
$ACADVER
  1
AC1009
  9
$INSBASE
 10
-21.2891260815963
 20
-1.28912608160656
 30
0.0
  9
$EXTMIN
 10
-21.2891260815963
 20
-1.28912608160656
 30
0.0
  9
$EXTMAX
 10
54.51776695296636
 20
61.28912608159665
 30
0.0
  9
$LIMMIN
 10
0.0
 20
0.0
  9
$LIMMAX
 10
410.0
 20
287.0
  9
$ORTHOMODE
 70
     0
  9
$REGENMODE
 70
     1
  9
$FILLMODE
 70
     1
  9
$QTEXTMODE
 70
     0
  9
$MIRRTEXT
 70
     1
  9
$DRAGMODE
 70
     2
  9
$LTSCALE
 40
25.0
  9
$OSMODE
 70
     0
  9
$ATTMODE
 70
     1
  9
$TEXTSIZE
 40
3.5
  9
$TRACEWID
 40
1.0
  9
$TEXTSTYLE
  7
STANDARD
  9
$CLAYER
  8
0
  9
$CELTYPE
  6
BYLAYER
  9
$CECOLOR
 62
   256
  9
$DIMSCALE
 40
1.0
  9
$DIMASZ
 40
3.5
  9
$DIMEXO
 40
0.1
  9
$DIMDLI
 40
7.0
  9
$DIMRND
 40
0.0
  9
$DIMDLE
 40
0.0
  9
$DIMEXE
 40
1.8
  9
$DIMTP
 40
0.0
  9
$DIMTM
 40
0.0
  9
$DIMTXT
 40
3.5
  9
$DIMCEN
 40
1.5
  9
$DIMTSZ
 40
0.0
  9
$DIMTOL
 70
     0
  9
$DIMLIM
 70
     0
  9
$DIMTIH
 70
     0
  9
$DIMTOH
 70
     0
  9
$DIMSE1
 70
     0
  9
$DIMSE2
 70
     0
  9
$DIMTAD
 70
     0
  9
$DIMZIN
 70
     0
  9
$DIMBLK
  1

  9
$DIMASO
 70
     1
  9
$DIMSHO
 70
     0
  9
$DIMPOST
  1

  9
$DIMAPOST
  1

  9
$DIMALT
 70
     0
  9
$DIMALTD
 70
     2
  9
$DIMALTF
 40
25.39999999999999
  9
$DIMLFAC
 40
1.0
  9
$DIMTOFL
 70
     0
  9
$DIMTVP
 40
0.0
  9
$DIMTIX
 70
     0
  9
$DIMSOXD
 70
     0
  9
$DIMSAH
 70
     0
  9
$DIMBLK1
  1

  9
$DIMBLK2
  1

  9
$DIMSTYLE
  2
*UNNAMED
  9
$DIMCLRD
 70
     0
  9
$DIMCLRE
 70
     0
  9
$DIMCLRT
 70
     0
  9
$DIMTFAC
 40
1.0
  9
$DIMGAP
 40
0.09
  9
$LUNITS
 70
     2
  9
$LUPREC
 70
     2
  9
$SKETCHINC
 40
1.0
  9
$FILLETRAD
 40
0.0
  9
$AUNITS
 70
     0
  9
$AUPREC
 70
     0
  9
$MENU
  1

  9
$ELEVATION
 40
0.0
  9
$PELEVATION
 40
0.0
  9
$THICKNESS
 40
0.0
  9
$LIMCHECK
 70
     0
  9
$BLIPMODE
 70
     1
  9
$CHAMFERA
 40
0.0
  9
$CHAMFERB
 40
0.0
  9
$SKPOLY
 70
     0
  9
$TDCREATE
 40
2449049.473007638
  9
$TDUPDATE
 40
2449393.450431597
  9
$TDINDWG
 40
0.0147732639
  9
$TDUSRTIMER
 40
0.0147732639
  9
$USRTIMER
 70
     1
  9
$ANGBASE
 50
0.0
  9
$ANGDIR
 70
     0
  9
$PDMODE
 70
     3
  9
$PDSIZE
 40
0.0
  9
$PLINEWID
 40
0.0
  9
$COORDS
 70
     2
  9
$SPLFRAME
 70
     0
  9
$SPLINETYPE
 70
     6
  9
$SPLINESEGS
 70
     8
  9
$ATTDIA
 70
     0
  9
$ATTREQ
 70
     1
  9
$HANDLING
 70
     1
  9
$HANDSEED
  5
40
  9
$SURFTAB1
 70
     6
  9
$SURFTAB2
 70
     6
  9
$SURFTYPE
 70
     6
  9
$SURFU
 70
     6
  9
$SURFV
 70
     6
  9
$UCSNAME
  2

  9
$UCSORG
 10
0.0
 20
0.0
 30
0.0
  9
$UCSXDIR
 10
1.0
 20
0.0
 30
0.0
  9
$UCSYDIR
 10
0.0
 20
1.0
 30
0.0
  9
$PUCSNAME
  2

  9
$PUCSORG
 10
0.0
 20
0.0
 30
0.0
  9
$PUCSXDIR
 10
1.0
 20
0.0
 30
0.0
  9
$PUCSYDIR
 10
0.0
 20
1.0
 30
0.0
  9
$USERI1
 70
     0
  9
$USERI2
 70
     0
  9
$USERI3
 70
     0
  9
$USERI4
 70
     0
  9
$USERI5
 70
     0
  9
$USERR1
 40
1.0
  9
$USERR2
 40
0.0
  9
$USERR3
 40
0.0
  9
$USERR4
 40
0.0
  9
$USERR5
 40
0.0
  9
$WORLDVIEW
 70
     1
  9
$SHADEDGE
 70
     3
  9
$SHADEDIF
 70
    70
  9
$TILEMODE
 70
     1
  9
$MAXACTVP
 70
    16
  9
$PINSBASE
 10
0.0
 20
0.0
 30
0.0
  9
$PLIMCHECK
 70
     0
  9
$PEXTMIN
 10
1.000000000000000E+20
 20
1.000000000000000E+20
 30
1.000000000000000E+20
  9
$PEXTMAX
 10
-1.000000000000000E+20
 20
-1.000000000000000E+20
 30
-1.000000000000000E+20
  9
$PLIMMIN
 10
0.0
 20
0.0
  9
$PLIMMAX
 10
12.0
 20
9.0
  9
$UNITMODE
 70
     0
  9
$VISRETAIN
 70
     0
  9
$PLINEGEN
 70
     0
  9
$PSLTSCALE
 70
     0
  9
$TREEDEPTH
 70
  3020
  9
$DWGCODEPAGE
  3
undefined
  0
ENDSEC
  0
SECTION
  2
TABLES
  0
TABLE
  2
VPORT
 70
     2
  0
VPORT
  2
*ACTIVE
 70
     0
 10
0.0
 20
0.0
 11
1.0
 21
1.0
 12
21.91248655637411
 22
32.57654484222617
 13
0.0
 23
0.0
 14
1.0
 24
1.0
 15
10.0
 25
10.0
 16
0.0
 26
0.0
 36
1.0
 17
0.0
 27
0.0
 37
0.0
 40
67.73134184766547
 41
1.275675675675675
 42
50.0
 43
0.0
 44
0.0
 50
0.0
 51
0.0
 71
     0
 72
 20000
 73
     1
 74
     2
 75
     0
 76
     0
 77
     0
 78
     0
  0
ENDTAB
  0
TABLE
  2
LTYPE
 70
     1
  0
LTYPE
  2
CONTINUOUS
 70
    64
  3
Ausgezogene Linie
 72
    65
 73
     0
 40
0.0
  0
ENDTAB
  0
TABLE
  2
LAYER
 70
     4
  0
LAYER
  2
0
 70
     0
 62
     7
  6
CONTINUOUS
  0
LAYER
  2
ITEM_50
 70
    64
 62
     7
  6
CONTINUOUS
  0
LAYER
  2
ITEM_25
 70
    64
 62
     3
  6
CONTINUOUS
  0
LAYER
  2
ITEM_HILFE
 70
    64
 62
     3
  6
CONTINUOUS
  0
ENDTAB
  0
TABLE
  2
STYLE
 70
     1
  0
STYLE
  2
STANDARD
 70
     0
 40
0.0
 41
1.0
 50
0.0
 71
     0
 42
3.5
  3
txt
  4

  0
ENDTAB
  0
TABLE
  2
VIEW
 70
     0
  0
ENDTAB
  0
TABLE
  2
UCS
 70
     0
  0
ENDTAB
  0
TABLE
  2
APPID
 70
     1
  0
APPID
  2
ACAD
 70
    64
  0
ENDTAB
  0
TABLE
  2
DIMSTYLE
 70
     0
  0
ENDTAB
  0
ENDSEC
  0
SECTION
  2
BLOCKS
  0
ENDSEC
  0
SECTION
  2
ENTITIES
  0
ARC
  8
ITEM_50
  5
26
 10
-15.99999999999997
 20
3.999999999991814
 30
0.0
 40
4.0
 50
180.0
 51
270.0000000000293
  0
LINE
  8
ITEM_50
  5
27
 10
-19.99999999999792
 20
56.00000000000013
 30
0.0
 11
-19.99999999999997
 21
3.999999999991814
 31
0.0
  0
ARC
  8
ITEM_50
  5
28
 10
-15.99999999999792
 20
55.99999999999987
 30
0.0
 40
4.0
 50
90.0
 51
179.9999999999963
  0
LINE
  8
ITEM_50
  5
29
 10
36.00000000000102
 20
60.00000000000013
 30
0.0
 11
4.000000000001023
 21
59.99999999999987
 31
0.0
  0
ARC
  8
ITEM_50
  5
2A
 10
36.00000000000105
 20
56.00000000000013
 30
0.0
 40
4.0
 50
0.0
 51
90.00000000000041
  0
ARC
  8
ITEM_50
  5
2B
 10
36.00000000000105
 20
3.999999999991814
 30
0.0
 40
4.0
 50
270.0
 51
0.0
  0
LINE
  8
ITEM_25
  5
2C
 10
37.5000000000011
 20
4.999999999991814
 30
0.0
 11
37.50000000000108
 21
55.00000000000013
 31
0.0
  0
LINE
  8
ITEM_25
  5
2D
 10
-14.99999999999792
 20
2.499999999991814
 30
0.0
 11
35.0000000000011
 21
2.499999999991814
 31
0.0
  0
LINE
  8
ITEM_50
  5
2E
 10
-15.99999999999792
 20
-0.0000000000081855
 30
0.0
 11
36.00000000000105
 21
0.0000000000081855
 31
0.0
  0
LINE
  8
ITEM_50
  5
2F
 10
40.00000000000105
 20
3.999999999991814
 30
0.0
 11
40.00000000000105
 21
56.00000000000013
 31
0.0
  0
LINE
  8
ITEM_25
  5
30
 10
35.00000000000108
 20
57.5000000000001
 30
0.0
 11
-14.99999999999792
 21
57.50000000000013
 31
0.0
  0
LINE
  8
ITEM_25
  5
31
 10
-17.49999999999792
 20
55.00000000000013
 30
0.0
 11
-17.49999999999792
 21
4.999999999991814
 31
0.0
  0
POINT
  8
ITEM_HILFE
  5
32
 10
-19.99999999999872
 20
59.99999999999908
 30
0.0
  0
POINT
  8
ITEM_HILFE
  5
33
 10
40.00000000000025
 20
59.99999999999908
 30
0.0
  0
POINT
  8
ITEM_HILFE
  5
34
 10
40.00000000000025
 20
-0.0000000000089884
 30
0.0
  0
POINT
  8
ITEM_HILFE
  5
35
 10
-19.99999999999872
 20
-0.0000000000089813
 30
0.0
  0
LINE
  8
ITEM_50
  5
36
 10
51.5
 20
60.00000000000828
 30
0.0
 11
50.0
 21
60.00000000000828
 31
0.0
  0
LINE
  8
ITEM_50
  5
37
 10
50.0
 20
60.00000000000828
 30
0.0
 11
50.0
 21
-0.0000000000000071
 31
0.0
  0
LINE
  8
ITEM_50
  5
38
 10
50.0
 20
-0.0000000000000071
 30
0.0
 11
51.5
 21
-0.0000000000000071
 31
0.0
  0
ARC
  8
ITEM_50
  5
39
 10
51.49999999999994
 20
2.499999999999992
 30
0.0
 40
2.5
 50
270.0
 51
0.0
  0
LINE
  8
ITEM_50
  5
3A
 10
54.0
 20
2.499999999999992
 30
0.0
 11
54.0
 21
57.50000000000828
 31
0.0
  0
ARC
  8
ITEM_50
  5
3B
 10
51.5
 20
57.50000000000828
 30
0.0
 40
2.5
 50
0.0
 51
89.99999999999998
  0
LINE
  8
ITEM_50
  5
3C
 10
-16.00000000002862
 20
59.99999999999181
 30
0.0
 11
35.99999999997035
 21
60.00000000000818
 31
0.0
  0
LINE
  8
ITEM_50
  5
3D
 10
-19.99999999999894
 20
3.999999999991814
 30
0.0
 11
-19.99999999999894
 21
35.99999999999184
 31
0.0
  0
ENDSEC
  0
EOF
